  0
SECTION
  2
HEADER
  9
$ACADVER
  1
AC1015
  9
$ACADMAINTVER
 70
     6
  9
$DWGCODEPAGE
  3
ANSI_1254
  9
$INSBASE
 10
0.0
 20
0.0
 30
0.0
  9
$EXTMIN
 10
0.0
 20
0.0
 30
0.0
  9
$EXTMAX
 10
279.4
 20
215.9
 30
0.0
  9
$LIMMIN
 10
0.0
 20
0.0
  9
$LIMMAX
 10
279.4
 20
215.9
  9
$ORTHOMODE
 70
     0
  9
$REGENMODE
 70
     1
  9
$FILLMODE
 70
     1
  9
$QTEXTMODE
 70
     0
  9
$MIRRTEXT
 70
     1
  9
$LTSCALE
 40
1.0
  9
$ATTMODE
 70
     1
  9
$TEXTSIZE
 40
3.5
  9
$TRACEWID
 40
1.0
  9
$TEXTSTYLE
  7
Standard
  9
$CLAYER
  8
0
  9
$CELTYPE
  6
ByLayer
  9
$CECOLOR
 62
   256
  9
$CELTSCALE
 40
1.0
  9
$DISPSILH
 70
     0
  9
$DIMSCALE
 40
1.0
  9
$DIMASZ
 40
3.5
  9
$DIMEXO
 40
1.0
  9
$DIMDLI
 40
3.75
  9
$DIMRND
 40
0.0
  9
$DIMDLE
 40
0.0
  9
$DIMEXE
 40
1.0
  9
$DIMTP
 40
0.0
  9
$DIMTM
 40
0.0
  9
$DIMTXT
 40
3.5
  9
$DIMCEN
 40
2.5
  9
$DIMTSZ
 40
0.0
  9
$DIMTOL
 70
     0
  9
$DIMLIM
 70
     0
  9
$DIMTIH
 70
     1
  9
$DIMTOH
 70
     1
  9
$DIMSE1
 70
     0
  9
$DIMSE2
 70
     0
  9
$DIMTAD
 70
     1
  9
$DIMZIN
 70
     0
  9
$DIMBLK
  1

  9
$DIMASO
 70
     1
  9
$DIMSHO
 70
     1
  9
$DIMPOST
  1

  9
$DIMAPOST
  1

  9
$DIMALT
 70
     0
  9
$DIMALTD
 70
     3
  9
$DIMALTF
 40
0.0393700787
  9
$DIMLFAC
 40
1.0
  9
$DIMTOFL
 70
     1
  9
$DIMTVP
 40
0.0
  9
$DIMTIX
 70
     0
  9
$DIMSOXD
 70
     0
  9
$DIMSAH
 70
     0
  9
$DIMBLK1
  1

  9
$DIMBLK2
  1

  9
$DIMSTYLE
  2
ISO-25
  9
$DIMCLRD
 70
     0
  9
$DIMCLRE
 70
     0
  9
$DIMCLRT
 70
     0
  9
$DIMTFAC
 40
1.0
  9
$DIMGAP
 40
1.524
  9
$DIMJUST
 70
     0
  9
$DIMSD1
 70
     0
  9
$DIMSD2
 70
     0
  9
$DIMTOLJ
 70
     0
  9
$DIMTZIN
 70
     0
  9
$DIMALTZ
 70
     0
  9
$DIMALTTZ
 70
     0
  9
$DIMUPT
 70
     0
  9
$DIMDEC
 70
     2
  9
$DIMTDEC
 70
     2
  9
$DIMALTU
 70
     2
  9
$DIMALTTD
 70
     3
  9
$DIMTXSTY
  7
Standard
  9
$DIMAUNIT
 70
     0
  9
$DIMADEC
 70
     2
  9
$DIMALTRND
 40
0.0
  9
$DIMAZIN
 70
     0
  9
$DIMDSEP
 70
    44
  9
$DIMATFIT
 70
     3
  9
$DIMFRAC
 70
     0
  9
$DIMLDRBLK
  1

  9
$DIMLUNIT
 70
     2
  9
$DIMLWD
 70
    -2
  9
$DIMLWE
 70
    -2
  9
$DIMTMOVE
 70
     0
  9
$LUNITS
 70
     2
  9
$LUPREC
 70
     2
  9
$SKETCHINC
 40
1.0
  9
$FILLETRAD
 40
10.0
  9
$AUNITS
 70
     0
  9
$AUPREC
 70
     2
  9
$MENU
  1
.
  9
$ELEVATION
 40
0.0
  9
$PELEVATION
 40
0.0
  9
$THICKNESS
 40
0.0
  9
$LIMCHECK
 70
     0
  9
$CHAMFERA
 40
0.0
  9
$CHAMFERB
 40
0.0
  9
$CHAMFERC
 40
0.0
  9
$CHAMFERD
 40
0.0
  9
$SKPOLY
 70
     0
  9
$TDCREATE
 40
2458985.646325185
  9
$TDUCREATE
 40
2458985.521325185
  9
$TDUPDATE
 40
2458985.646325475
  9
$TDUUPDATE
 40
2458985.521325475
  9
$TDINDWG
 40
0.0000000116
  9
$TDUSRTIMER
 40
0.0000000116
  9
$USRTIMER
 70
     1
  9
$ANGBASE
 50
0.0
  9
$ANGDIR
 70
     0
  9
$PDMODE
 70
     0
  9
$PDSIZE
 40
-1.0
  9
$PLINEWID
 40
0.0
  9
$SPLFRAME
 70
     0
  9
$SPLINETYPE
 70
     6
  9
$SPLINESEGS
 70
     8
  9
$HANDSEED
  5
C2
  9
$SURFTAB1
 70
     6
  9
$SURFTAB2
 70
     6
  9
$SURFTYPE
 70
     6
  9
$SURFU
 70
     6
  9
$SURFV
 70
     6
  9
$UCSBASE
  2

  9
$UCSNAME
  2

  9
$UCSORG
 10
0.0
 20
0.0
 30
0.0
  9
$UCSXDIR
 10
1.0
 20
0.0
 30
0.0
  9
$UCSYDIR
 10
0.0
 20
1.0
 30
0.0
  9
$UCSORTHOREF
  2

  9
$UCSORTHOVIEW
 70
     0
  9
$UCSORGTOP
 10
0.0
 20
0.0
 30
0.0
  9
$UCSORGBOTTOM
 10
0.0
 20
0.0
 30
0.0
  9
$UCSORGLEFT
 10
0.0
 20
0.0
 30
0.0
  9
$UCSORGRIGHT
 10
0.0
 20
0.0
 30
0.0
  9
$UCSORGFRONT
 10
0.0
 20
0.0
 30
0.0
  9
$UCSORGBACK
 10
0.0
 20
0.0
 30
0.0
  9
$PUCSBASE
  2

  9
$PUCSNAME
  2

  9
$PUCSORG
 10
0.0
 20
0.0
 30
0.0
  9
$PUCSXDIR
 10
1.0
 20
0.0
 30
0.0
  9
$PUCSYDIR
 10
0.0
 20
1.0
 30
0.0
  9
$PUCSORTHOREF
  2

  9
$PUCSORTHOVIEW
 70
     0
  9
$PUCSORGTOP
 10
0.0
 20
0.0
 30
0.0
  9
$PUCSORGBOTTOM
 10
0.0
 20
0.0
 30
0.0
  9
$PUCSORGLEFT
 10
0.0
 20
0.0
 30
0.0
  9
$PUCSORGRIGHT
 10
0.0
 20
0.0
 30
0.0
  9
$PUCSORGFRONT
 10
0.0
 20
0.0
 30
0.0
  9
$PUCSORGBACK
 10
0.0
 20
0.0
 30
0.0
  9
$USERI1
 70
     0
  9
$USERI2
 70
     0
  9
$USERI3
 70
     0
  9
$USERI4
 70
     0
  9
$USERI5
 70
     0
  9
$USERR1
 40
0.0
  9
$USERR2
 40
0.0
  9
$USERR3
 40
0.0
  9
$USERR4
 40
0.0
  9
$USERR5
 40
0.0
  9
$WORLDVIEW
 70
     1
  9
$SHADEDGE
 70
     3
  9
$SHADEDIF
 70
    70
  9
$TILEMODE
 70
     1
  9
$MAXACTVP
 70
    64
  9
$PINSBASE
 10
0.0
 20
0.0
 30
0.0
  9
$PLIMCHECK
 70
     0
  9
$PEXTMIN
 10
1.0000000000E+20
 20
1.0000000000E+20
 30
1.0000000000E+20
  9
$PEXTMAX
 10
-1.0000000000E+20
 20
-1.0000000000E+20
 30
-1.0000000000E+20
  9
$PLIMMIN
 10
0.0
 20
0.0
  9
$PLIMMAX
 10
420.0
 20
297.0
  9
$UNITMODE
 70
     0
  9
$VISRETAIN
 70
     1
  9
$PLINEGEN
 70
     0
  9
$PSLTSCALE
 70
     1
  9
$TREEDEPTH
 70
  3020
  9
$CMLSTYLE
  2
Standard
  9
$CMLJUST
 70
     0
  9
$CMLSCALE
 40
20.0
  9
$PROXYGRAPHICS
 70
     1
  9
$MEASUREMENT
 70
     1
  9
$CELWEIGHT
370
    -1
  9
$ENDCAPS
280
     0
  9
$JOINSTYLE
280
     0
  9
$LWDISPLAY
290
     1
  9
$INSUNITS
 70
     4
  9
$HYPERLINKBASE
  1

  9
$STYLESHEET
  1

  9
$XEDIT
290
     1
  9
$CEPSNTYPE
380
     0
  9
$PSTYLEMODE
290
     1
  9
$FINGERPRINTGUID
  2
{23d55ae7-f8f6-496c-9715-8494b05c84ec}
  9
$VERSIONGUID
  2
{FAEB1C32-E019-11D5-929B-00C0DF256EC4}
  9
$EXTNAMES
290
     1
  9
$PSVPSCALE
 40
0.0
  9
$OLESTARTUP
290
     0
  0
ENDSEC
  0
SECTION
  2
CLASSES
  0
CLASS
  1
ACDBDICTIONARYWDFLT
  2
AcDbDictionaryWithDefault
  3
ObjectDBX Classes
 90
        0
280
     0
281
     0
  0
CLASS
  1
VISUALSTYLE
  2
AcDbVisualStyle
  3
ObjectDBX Classes
 90
     4095
280
     0
281
     0
  0
CLASS
  1
MATERIAL
  2
AcDbMaterial
  3
ObjectDBX Classes
 90
     1153
280
     0
281
     0
  0
CLASS
  1
SCALE
  2
AcDbScale
  3
ObjectDBX Classes
 90
     1153
280
     0
281
     0
  0
CLASS
  1
TABLESTYLE
  2
AcDbTableStyle
  3
ObjectDBX Classes
 90
     4095
280
     0
281
     0
  0
CLASS
  1
MLEADERSTYLE
  2
AcDbMLeaderStyle
  3
ACDB_MLEADERSTYLE_CLASS
 90
     4095
280
     0
281
     0
  0
CLASS
  1
SUN
  2
AcDbSun
  3
SCENEOE
 90
     1153
280
     0
281
     0
  0
CLASS
  1
ACDBPLACEHOLDER
  2
AcDbPlaceHolder
  3
ObjectDBX Classes
 90
        0
280
     0
281
     0
  0
CLASS
  1
LAYOUT
  2
AcDbLayout
  3
ObjectDBX Classes
 90
        0
280
     0
281
     0
  0
ENDSEC
  0
SECTION
  2
TABLES
  0
TABLE
  2
VPORT
  5
8
330
0
100
AcDbSymbolTable
 70
     1
  0
VPORT
  5
29
330
8
100
AcDbSymbolTableRecord
100
AcDbViewportTableRecord
  2
*Active
 70
     0
 10
0.0
 20
0.0
 11
1.0
 21
1.0
 12
139.7
 22
107.95
 13
0.0
 23
0.0
 14
10.0
 24
10.0
 15
10.0
 25
10.0
 16
0.0
 26
0.0
 36
1.0
 17
0.0
 27
0.0
 37
0.0
 40
215.9
 41
1.2941176471
 42
50.0
 43
0.0
 44
0.0
 50
0.0
 51
0.0
 71
     0
 72
  2000
 73
     1
 74
     3
 75
     0
 76
     0
 77
     0
 78
     0
281
     0
 65
     1
110
0.0
120
0.0
130
0.0
111
1.0
121
0.0
131
0.0
112
0.0
122
1.0
132
0.0
 79
     0
146
0.0
  0
ENDTAB
  0
TABLE
  2
LTYPE
  5
5
330
0
100
AcDbSymbolTable
 70
     6
  0
LTYPE
  5
14
330
5
100
AcDbSymbolTableRecord
100
AcDbLinetypeTableRecord
  2
ByBlock
 70
     0
  3

 72
    65
 73
     0
 40
0.0
  0
LTYPE
  5
15
330
5
100
AcDbSymbolTableRecord
100
AcDbLinetypeTableRecord
  2
ByLayer
 70
     0
  3

 72
    65
 73
     0
 40
0.0
  0
LTYPE
  5
16
330
5
100
AcDbSymbolTableRecord
100
AcDbLinetypeTableRecord
  2
Continuous
 70
     0
  3
Solid line
 72
    65
 73
     0
 40
0.0
  0
LTYPE
  5
6E
330
5
100
AcDbSymbolTableRecord
100
AcDbLinetypeTableRecord
  2
HIDDEN
 70
     0
  3
Hidden __ __ __ __ __ __ __ __ __ __ __ __ __ __
 72
    65
 73
     2
 40
1.905
 49
1.27
 74
     0
 49
-0.635
 74
     0
  0
LTYPE
  5
6F
330
5
100
AcDbSymbolTableRecord
100
AcDbLinetypeTableRecord
  2
PHANTOM
 70
     0
  3
Phantom ______  __  __  ______  __  __  ______
 72
    65
 73
     6
 40
12.7
 49
6.35
 74
     0
 49
-1.27
 74
     0
 49
1.27
 74
     0
 49
-1.27
 74
     0
 49
1.27
 74
     0
 49
-1.27
 74
     0
  0
LTYPE
  5
70
330
5
100
AcDbSymbolTableRecord
100
AcDbLinetypeTableRecord
  2
CENTER
 70
     0
  3
Center ____ _ ____ _ ____ _ ____ _ ____ _ ____
 72
    65
 73
     4
 40
10.16
 49
6.35
 74
     0
 49
-1.27
 74
     0
 49
1.27
 74
     0
 49
-1.27
 74
     0
  0
LTYPE
  5
71
330
5
100
AcDbSymbolTableRecord
100
AcDbLinetypeTableRecord
  2
CENTERX2
 70
     0
  3
Center (2x) ________  __  ________  __  _____
 72
    65
 73
     4
 40
20.32
 49
12.7
 74
     0
 49
-2.54
 74
     0
 49
2.54
 74
     0
 49
-2.54
 74
     0
  0
LTYPE
  5
72
330
5
100
AcDbSymbolTableRecord
100
AcDbLinetypeTableRecord
  2
DOT2
 70
     0
  3
Dot (.5x) ........................................
 72
    65
 73
     2
 40
0.635
 49
0.0
 74
     0
 49
-0.635
 74
     0
  0
ENDTAB
  0
TABLE
  2
LAYER
  5
2
330
0
100
AcDbSymbolTable
 70
    17
  0
LAYER
  5
10
330
2
100
AcDbSymbolTableRecord
100
AcDbLayerTableRecord
  2
0
 70
     0
 62
     7
  6
Continuous
370
    -3
390
F
  0
LAYER
  5
73
330
2
100
AcDbSymbolTableRecord
100
AcDbLayerTableRecord
  2
FORMAT
 70
     0
 62
     7
  6
Continuous
370
    -3
390
F
  0
LAYER
  5
74
330
2
100
AcDbSymbolTableRecord
100
AcDbLayerTableRecord
  2
YARDIMCI_GEOMETRI
 70
     0
 62
    -6
  6
Continuous
290
     0
370
    -3
390
F
  0
LAYER
  5
75
330
2
100
AcDbSymbolTableRecord
100
AcDbLayerTableRecord
  2
SAYFA_CERCEVESI
 70
     0
 62
     7
  6
Continuous
370
    25
390
F
  0
LAYER
  5
76
330
2
100
AcDbSymbolTableRecord
100
AcDbLayerTableRecord
  2
ANTET
 70
     0
 62
     7
  6
Continuous
370
    -3
390
F
  0
LAYER
  5
77
330
2
100
AcDbSymbolTableRecord
100
AcDbLayerTableRecord
  2
OLCU
 70
     0
 62
   150
  6
Continuous
370
    -3
390
F
  0
LAYER
  5
78
330
2
100
AcDbSymbolTableRecord
100
AcDbLayerTableRecord
  2
METIN
 70
     0
 62
    96
  6
Continuous
370
    -3
390
F
  0
LAYER
  5
79
330
2
100
AcDbSymbolTableRecord
100
AcDbLayerTableRecord
  2
BALON
 70
     0
 62
     5
  6
Continuous
370
    -3
390
F
  0
LAYER
  5
7A
330
2
100
AcDbSymbolTableRecord
100
AcDbLayerTableRecord
  2
VURGU
 70
     0
 62
     7
  6
Continuous
370
    -3
390
F
  0
LAYER
  5
7B
330
2
100
AcDbSymbolTableRecord
100
AcDbLayerTableRecord
  2
SILIK
 70
     0
 62
     7
  6
Continuous
370
    -3
390
F
  0
LAYER
  5
7C
330
2
100
AcDbSymbolTableRecord
100
AcDbLayerTableRecord
  2
MODEL
 70
     0
 62
     7
  6
Continuous
370
    -3
390
F
  0
LAYER
  5
7D
330
2
100
AcDbSymbolTableRecord
100
AcDbLayerTableRecord
  2
DETAYLANDıRMA
 70
     0
 62
   190
  6
Continuous
370
    -3
390
F
  0
LAYER
  5
7E
330
2
100
AcDbSymbolTableRecord
100
AcDbLayerTableRecord
  2
TOLERANS
 70
     0
 62
   230
  6
Continuous
370
    -3
390
F
  0
LAYER
  5
7F
330
2
100
AcDbSymbolTableRecord
100
AcDbLayerTableRecord
  2
MERKEZ_CIZGILERI
 70
     0
 62
    30
  6
Continuous
370
    -3
390
F
  0
LAYER
  5
80
330
2
100
AcDbSymbolTableRecord
100
AcDbLayerTableRecord
  2
KESIT-DETAY_CIZGILERI
 70
     0
 62
     7
  6
Continuous
370
    -3
390
F
  0
LAYER
  5
81
330
2
100
AcDbSymbolTableRecord
100
AcDbLayerTableRecord
  2
\U+041E\U+0421\U+0415\U+0412\U+042B\U+0415
 70
     0
 62
     7
  6
Continuous
370
    -3
390
F
  0
LAYER
  5
82
330
2
100
AcDbSymbolTableRecord
100
AcDbLayerTableRecord
  2
\U+0412\U+041E\U+0414\U+042F\U+041D\U+042B\U+0415_\U+0417\U+041D\U+0410\U+041A\U+0418
 70
     0
 62
    11
  6
Continuous
370
    -3
390
F
  0
ENDTAB
  0
TABLE
  2
STYLE
  5
3
330
0
100
AcDbSymbolTable
 70
     1
  0
STYLE
  5
11
330
3
100
AcDbSymbolTableRecord
100
AcDbTextStyleTableRecord
  2
Standard
 70
     0
 40
0.0
 41
1.0
 50
0.0
 71
     0
 42
3.5
  3
txt
  4

  0
ENDTAB
  0
TABLE
  2
VIEW
  5
6
330
0
100
AcDbSymbolTable
 70
     0
  0
ENDTAB
  0
TABLE
  2
UCS
  5
7
330
0
100
AcDbSymbolTable
 70
     0
  0
ENDTAB
  0
TABLE
  2
APPID
  5
9
330
0
100
AcDbSymbolTable
 70
     1
  0
APPID
  5
12
330
9
100
AcDbSymbolTableRecord
100
AcDbRegAppTableRecord
  2
ACAD
 70
     0
  0
ENDTAB
  0
TABLE
  2
DIMSTYLE
  5
A
330
0
100
AcDbSymbolTable
 70
     1
100
AcDbDimStyleTable
  0
DIMSTYLE
105
27
330
A
100
AcDbSymbolTableRecord
100
AcDbDimStyleTableRecord
  2
ISO-25
 70
     0
 41
2.5
 42
0.625
 43
3.75
 44
1.25
 73
     0
 74
     0
 77
     1
 78
     8
140
2.5
141
2.5
143
0.0393700787
147
0.625
171
     3
172
     1
178
     0
271
     2
272
     2
274
     3
278
    44
283
     0
284
     8
340
11
  0
ENDTAB
  0
TABLE
  2
BLOCK_RECORD
  5
1
330
0
100
AcDbSymbolTable
 70
     1
  0
BLOCK_RECORD
  5
1F
330
1
100
AcDbSymbolTableRecord
100
AcDbBlockTableRecord
  2
*Model_Space
340
22
  0
BLOCK_RECORD
  5
1B
330
1
100
AcDbSymbolTableRecord
100
AcDbBlockTableRecord
  2
*Paper_Space
340
1E
  0
BLOCK_RECORD
  5
23
330
1
100
AcDbSymbolTableRecord
100
AcDbBlockTableRecord
  2
*Paper_Space0
340
26
  0
ENDTAB
  0
ENDSEC
  0
SECTION
  2
BLOCKS
  0
BLOCK
  5
20
330
1F
100
AcDbEntity
  8
0
100
AcDbBlockBegin
  2
*Model_Space
 70
     0
 10
0.0
 20
0.0
 30
0.0
  3
*Model_Space
  1

  0
ENDBLK
  5
21
330
1F
100
AcDbEntity
  8
0
100
AcDbBlockEnd
  0
BLOCK
  5
1C
330
1B
100
AcDbEntity
 67
     1
  8
0
100
AcDbBlockBegin
  2
*Paper_Space
 70
     0
 10
0.0
 20
0.0
 30
0.0
  3
*Paper_Space
  1

  0
ENDBLK
  5
1D
330
1B
100
AcDbEntity
 67
     1
  8
0
100
AcDbBlockEnd
  0
BLOCK
  5
24
330
23
100
AcDbEntity
  8
0
100
AcDbBlockBegin
  2
*Paper_Space0
 70
     0
 10
0.0
 20
0.0
 30
0.0
  3
*Paper_Space0
  1

  0
ENDBLK
  5
25
330
23
100
AcDbEntity
  8
0
100
AcDbBlockEnd
  0
ENDSEC
  0
SECTION
  2
ENTITIES
  0
CIRCLE
  5
83
330
1F
100
AcDbEntity
  8
0
  6
Continuous
 62
     7
370
    25
100
AcDbCircle
 10
135.9944086538
 20
118.27271875
 30
0.0
 40
125.0
  0
CIRCLE
  5
84
330
1F
100
AcDbEntity
  8
0
  6
Continuous
 62
     7
370
    25
100
AcDbCircle
 10
135.9944086538
 20
118.27271875
 30
0.0
 40
102.3
  0
CIRCLE
  5
85
330
1F
100
AcDbEntity
  8
0
  6
Continuous
 62
     7
370
    25
100
AcDbCircle
 10
135.9944086538
 20
118.27271875
 30
0.0
 40
144.0
  0
CIRCLE
  5
86
330
1F
100
AcDbEntity
  8
0
  6
Continuous
 62
     7
370
    25
100
AcDbCircle
 10
135.9944086538
 20
118.27271875
 30
0.0
 40
160.0
  0
LINE
  5
87
330
1F
100
AcDbEntity
  8
0
  6
Continuous
 62
     7
370
    25
100
AcDbLine
 10
295.9944086538
 20
478.915973775
 30
0.0
 11
295.9944086538
 21
513.915973775
 31
0.0
  0
LINE
  5
88
330
1F
100
AcDbEntity
  8
0
  6
Continuous
 62
     7
370
    25
100
AcDbLine
 10
-24.0055913462
 20
513.915973775
 30
0.0
 11
-24.0055913462
 21
478.915973775
 31
0.0
  0
LINE
  5
89
330
1F
100
AcDbEntity
  8
0
  6
Continuous
 62
     7
370
    25
100
AcDbLine
 10
279.9944086538
 20
513.915973775
 30
0.0
 11
260.9944086538
 21
553.915973775
 31
0.0
  0
LINE
  5
8A
330
1F
100
AcDbEntity
  8
0
  6
Continuous
 62
     7
370
    25
100
AcDbLine
 10
10.9944086538
 20
553.915973775
 30
0.0
 11
-8.0055913462
 21
513.915973775
 31
0.0
  0
LINE
  5
8B
330
1F
100
AcDbEntity
  8
0
  6
Continuous
 62
     7
370
    25
100
AcDbLine
 10
260.9944086538
 20
553.915973775
 30
0.0
 11
260.9944086538
 21
598.915973775
 31
0.0
  0
LINE
  5
8C
330
1F
100
AcDbEntity
  8
0
  6
Continuous
 62
     7
370
    25
100
AcDbLine
 10
10.9944086538
 20
598.915973775
 30
0.0
 11
10.9944086538
 21
553.915973775
 31
0.0
  0
LINE
  5
8D
330
1F
100
AcDbEntity
  8
0
  6
Continuous
 62
     7
370
    25
100
AcDbLine
 10
295.9944086538
 20
478.915973775
 30
0.0
 11
-24.0055913462
 21
478.915973775
 31
0.0
  0
LINE
  5
8E
330
1F
100
AcDbEntity
  8
0
  6
Continuous
 62
     7
370
    25
100
AcDbLine
 10
295.9944086538
 20
513.915973775
 30
0.0
 11
-24.0055913462
 21
513.915973775
 31
0.0
  0
LINE
  5
8F
330
1F
100
AcDbEntity
  8
0
  6
Continuous
 62
     7
370
    25
100
AcDbLine
 10
260.9944086538
 20
553.915973775
 30
0.0
 11
10.9944086538
 21
553.915973775
 31
0.0
  0
LINE
  5
90
330
1F
100
AcDbEntity
  8
0
  6
Continuous
 62
     7
370
    25
100
AcDbLine
 10
260.9944086538
 20
598.915973775
 30
0.0
 11
10.9944086538
 21
598.915973775
 31
0.0
  0
LINE
  5
91
330
1F
100
AcDbEntity
  8
0
  6
Continuous
 62
     7
370
    25
100
AcDbLine
 10
-169.5595353666
 20
278.27271875
 30
0.0
 11
-204.5595353666
 21
278.27271875
 31
0.0
  0
LINE
  5
92
330
1F
100
AcDbEntity
  8
0
  6
Continuous
 62
     7
370
    25
100
AcDbLine
 10
-204.5595353666
 20
-41.72728125
 30
0.0
 11
-169.5595353666
 21
-41.72728125
 31
0.0
  0
LINE
  5
93
330
1F
100
AcDbEntity
  8
0
  6
Continuous
 62
     7
370
    25
100
AcDbLine
 10
-204.5595353666
 20
262.27271875
 30
0.0
 11
-244.5595353666
 21
243.27271875
 31
0.0
  0
LINE
  5
94
330
1F
100
AcDbEntity
  8
0
  6
Continuous
 62
     7
370
    25
100
AcDbLine
 10
-244.5595353666
 20
-6.72728125
 30
0.0
 11
-204.5595353666
 21
-25.72728125
 31
0.0
  0
LINE
  5
95
330
1F
100
AcDbEntity
  8
0
  6
Continuous
 62
     7
370
    25
100
AcDbLine
 10
-244.5595353666
 20
243.27271875
 30
0.0
 11
-289.5595353666
 21
243.27271875
 31
0.0
  0
LINE
  5
96
330
1F
100
AcDbEntity
  8
0
  6
Continuous
 62
     7
370
    25
100
AcDbLine
 10
-289.5595353666
 20
-6.72728125
 30
0.0
 11
-244.5595353666
 21
-6.72728125
 31
0.0
  0
LINE
  5
97
330
1F
100
AcDbEntity
  8
0
  6
Continuous
 62
     7
370
    25
100
AcDbLine
 10
-169.5595353666
 20
278.27271875
 30
0.0
 11
-169.5595353666
 21
-41.72728125
 31
0.0
  0
LINE
  5
98
330
1F
100
AcDbEntity
  8
0
  6
Continuous
 62
     7
370
    25
100
AcDbLine
 10
-204.5595353666
 20
278.27271875
 30
0.0
 11
-204.5595353666
 21
-41.72728125
 31
0.0
  0
LINE
  5
99
330
1F
100
AcDbEntity
  8
0
  6
Continuous
 62
     7
370
    25
100
AcDbLine
 10
-244.5595353666
 20
243.27271875
 30
0.0
 11
-244.5595353666
 21
-6.72728125
 31
0.0
  0
LINE
  5
9A
330
1F
100
AcDbEntity
  8
0
  6
Continuous
 62
     7
370
    25
100
AcDbLine
 10
-289.5595353666
 20
243.27271875
 30
0.0
 11
-289.5595353666
 21
-6.72728125
 31
0.0
  0
LINE
  5
9B
330
1F
100
AcDbEntity
  8
0
  6
Continuous
 62
     7
370
    25
100
AcDbLine
 10
-24.0055913462
 20
-209.4365335737
 30
0.0
 11
-24.0055913462
 21
-244.4365335737
 31
0.0
  0
LINE
  5
9C
330
1F
100
AcDbEntity
  8
0
  6
Continuous
 62
     7
370
    25
100
AcDbLine
 10
295.9944086538
 20
-244.4365335737
 30
0.0
 11
295.9944086538
 21
-209.4365335737
 31
0.0
  0
LINE
  5
9D
330
1F
100
AcDbEntity
  8
0
  6
Continuous
 62
     7
370
    25
100
AcDbLine
 10
-8.0055913462
 20
-244.4365335737
 30
0.0
 11
10.9944086538
 21
-284.4365335737
 31
0.0
  0
LINE
  5
9E
330
1F
100
AcDbEntity
  8
0
  6
Continuous
 62
     7
370
    25
100
AcDbLine
 10
260.9944086538
 20
-284.4365335737
 30
0.0
 11
279.9944086538
 21
-244.4365335737
 31
0.0
  0
LINE
  5
9F
330
1F
100
AcDbEntity
  8
0
  6
Continuous
 62
     7
370
    25
100
AcDbLine
 10
10.9944086538
 20
-284.4365335737
 30
0.0
 11
10.9944086538
 21
-329.4365335737
 31
0.0
  0
LINE
  5
A0
330
1F
100
AcDbEntity
  8
0
  6
Continuous
 62
     7
370
    25
100
AcDbLine
 10
260.9944086538
 20
-329.4365335737
 30
0.0
 11
260.9944086538
 21
-284.4365335737
 31
0.0
  0
LINE
  5
A1
330
1F
100
AcDbEntity
  8
0
  6
Continuous
 62
     7
370
    25
100
AcDbLine
 10
-24.0055913462
 20
-209.4365335737
 30
0.0
 11
295.9944086538
 21
-209.4365335737
 31
0.0
  0
LINE
  5
A2
330
1F
100
AcDbEntity
  8
0
  6
Continuous
 62
     7
370
    25
100
AcDbLine
 10
-24.0055913462
 20
-244.4365335737
 30
0.0
 11
295.9944086538
 21
-244.4365335737
 31
0.0
  0
LINE
  5
A3
330
1F
100
AcDbEntity
  8
0
  6
Continuous
 62
     7
370
    25
100
AcDbLine
 10
10.9944086538
 20
-284.4365335737
 30
0.0
 11
260.9944086538
 21
-284.4365335737
 31
0.0
  0
LINE
  5
A4
330
1F
100
AcDbEntity
  8
0
  6
Continuous
 62
     7
370
    25
100
AcDbLine
 10
10.9944086538
 20
-329.4365335737
 30
0.0
 11
260.9944086538
 21
-329.4365335737
 31
0.0
  0
LINE
  5
A5
330
1F
100
AcDbEntity
  8
0
  6
Continuous
 62
     7
370
    25
100
AcDbLine
 10
435.6845089358
 20
-41.72728125
 30
0.0
 11
470.6845089358
 21
-41.72728125
 31
0.0
  0
LINE
  5
A6
330
1F
100
AcDbEntity
  8
0
  6
Continuous
 62
     7
370
    25
100
AcDbLine
 10
470.6845089358
 20
278.27271875
 30
0.0
 11
435.6845089358
 21
278.27271875
 31
0.0
  0
LINE
  5
A7
330
1F
100
AcDbEntity
  8
0
  6
Continuous
 62
     7
370
    25
100
AcDbLine
 10
470.6845089358
 20
-25.72728125
 30
0.0
 11
510.6845089358
 21
-6.72728125
 31
0.0
  0
LINE
  5
A8
330
1F
100
AcDbEntity
  8
0
  6
Continuous
 62
     7
370
    25
100
AcDbLine
 10
510.6845089358
 20
243.27271875
 30
0.0
 11
470.6845089358
 21
262.27271875
 31
0.0
  0
LINE
  5
A9
330
1F
100
AcDbEntity
  8
0
  6
Continuous
 62
     7
370
    25
100
AcDbLine
 10
510.6845089358
 20
-6.72728125
 30
0.0
 11
555.6845089358
 21
-6.72728125
 31
0.0
  0
LINE
  5
AA
330
1F
100
AcDbEntity
  8
0
  6
Continuous
 62
     7
370
    25
100
AcDbLine
 10
555.6845089358
 20
243.27271875
 30
0.0
 11
510.6845089358
 21
243.27271875
 31
0.0
  0
LINE
  5
AB
330
1F
100
AcDbEntity
  8
0
  6
Continuous
 62
     7
370
    25
100
AcDbLine
 10
435.6845089358
 20
118.27271875
 30
0.0
 11
435.6845089358
 21
278.27271875
 31
0.0
  0
LINE
  5
AC
330
1F
100
AcDbEntity
  8
0
  6
Continuous
 62
     7
370
    25
100
AcDbLine
 10
435.6845089358
 20
-41.72728125
 30
0.0
 11
435.6845089358
 21
118.27271875
 31
0.0
  0
LINE
  5
AD
330
1F
100
AcDbEntity
  8
0
  6
Continuous
 62
     7
370
    25
100
AcDbLine
 10
470.6845089358
 20
118.27271875
 30
0.0
 11
470.6845089358
 21
278.27271875
 31
0.0
  0
LINE
  5
AE
330
1F
100
AcDbEntity
  8
0
  6
Continuous
 62
     7
370
    25
100
AcDbLine
 10
470.6845089358
 20
-41.72728125
 30
0.0
 11
470.6845089358
 21
118.27271875
 31
0.0
  0
LINE
  5
AF
330
1F
100
AcDbEntity
  8
0
  6
Continuous
 62
     7
370
    25
100
AcDbLine
 10
510.6845089358
 20
118.27271875
 30
0.0
 11
510.6845089358
 21
243.27271875
 31
0.0
  0
LINE
  5
B0
330
1F
100
AcDbEntity
  8
0
  6
Continuous
 62
     7
370
    25
100
AcDbLine
 10
510.6845089358
 20
-6.72728125
 30
0.0
 11
510.6845089358
 21
118.27271875
 31
0.0
  0
LINE
  5
B1
330
1F
100
AcDbEntity
  8
0
  6
Continuous
 62
     7
370
    25
100
AcDbLine
 10
555.6845089358
 20
118.27271875
 30
0.0
 11
555.6845089358
 21
243.27271875
 31
0.0
  0
LINE
  5
B2
330
1F
100
AcDbEntity
  8
0
  6
Continuous
 62
     7
370
    25
100
AcDbLine
 10
555.6845089358
 20
-6.72728125
 30
0.0
 11
555.6845089358
 21
118.27271875
 31
0.0
  0
LINE
  5
B3
330
1F
100
AcDbEntity
  8
0
  6
Continuous
 62
     7
370
    25
100
AcDbLine
 10
526.0101537207
 20
-141.5894015293
 30
0.0
 11
494.1903485673
 21
-123.2202190133
 31
0.0
  0
LINE
  5
B4
330
1F
100
AcDbEntity
  8
0
  6
Continuous
 62
     7
370
    25
100
AcDbLine
 10
369.2005069878
 20
-339.7324346085
 30
0.0
 11
401.0203121412
 21
-358.1016171245
 31
0.0
  0
LINE
  5
B5
330
1F
100
AcDbEntity
  8
0
  6
Continuous
 62
     7
370
    25
100
AcDbLine
 10
535.4235642231
 20
-134.7459255691
 30
0.0
 11
515.1982265429
 21
-135.3478088257
 31
0.0
  0
LINE
  5
B6
330
1F
100
AcDbEntity
  8
0
  6
Continuous
 62
     7
370
    25
100
AcDbLine
 10
390.2083849634
 20
-351.8600244208
 30
0.0
 11
399.8014794484
 21
-369.67572216
 31
0.0
  0
LINE
  5
B7
330
1F
100
AcDbEntity
  8
0
  6
Continuous
 62
     7
370
    25
100
AcDbLine
 10
596.5417401308
 20
-141.8929955394
 30
0.0
 11
571.7930027893
 21
-127.6058535825
 31
0.0
  0
LINE
  5
B8
330
1F
100
AcDbEntity
  8
0
  6
Continuous
 62
     7
370
    25
100
AcDbLine
 10
411.8060055675
 20
-404.7414895443
 30
0.0
 11
436.554742909
 21
-419.0286315012
 31
0.0
  0
LWPOLYLINE
  5
B9
330
1F
100
AcDbEntity
  8
0
  6
Continuous
 62
     7
370
    25
100
AcDbPolyline
 90
      125
 70
   128
 43
0.0
 10
343.3070801292
 20
-282.5018337998
 10
343.4205259396
 20
-277.2667037469
 10
343.7605721569
 20
-271.9140304531
 10
344.3263458875
 20
-266.457554154
 10
345.1163947982
 20
-260.9112815461
 10
346.1286908448
 20
-255.2894498315
 10
347.3606354779
 20
-249.6064901716
 10
348.8090663134
 20
-243.8769906424
 10
350.4702652499
 20
-238.115658787
 10
352.3399680137
 20
-232.3372838616
 10
354.4133751046
 20
-226.5566988719
 10
356.6851641163
 20
-220.7887424965
 10
359.1495033991
 20
-215.0482209967
 10
361.8000670292
 20
-209.349870209
 10
364.630051048
 20
-203.708317718
 10
367.6321909269
 20
-198.1380453081
 10
370.7987802161
 20
-192.6533517887
 10
374.1216903261
 20
-187.2683162894
 10
377.5923913945
 20
-181.996762119
 10
381.2019741813
 20
-176.8522212816
 10
384.9411729393
 20
-171.8478997396
 10
388.8003891989
 20
-166.9966435148
 10
392.7697164074
 20
-162.3109057121
 10
396.8389653586
 20
-157.8027145535
 10
400.997690349
 20
-153.4836425009
 10
405.2352159911
 20
-149.3647765503
 10
409.5406646173
 20
-145.4566897716
 10
413.9029842028
 20
-141.7694141675
 10
418.3109767359
 20
-138.3124149215
 10
422.7533269627
 20
-135.0945661012
 10
427.2186314341
 20
-132.1241278783
 10
431.6954277775
 20
-129.4087253252
 10
436.172224121
 20
-126.9553288412
 10
440.6375285924
 20
-124.77023626
 10
445.0798788192
 20
-122.8590566828
 10
449.4878713522
 20
-121.2266960802
 10
453.8501909378
 20
-119.8773446985
 10
458.155639564
 20
-118.8144663033
 10
462.3931652061
 20
-118.0407892882
 10
466.5518901964
 20
-117.5582996711
 10
470.6211391477
 20
-117.3682359958
 10
474.5904663561
 20
-117.471086153
 10
478.4496826158
 20
-117.866586128
 10
482.1888813738
 20
-118.5537206779
 10
485.7984641606
 20
-119.5307259381
 10
489.2691652289
 20
-120.7950939503
 10
492.592075339
 20
-122.3435790999
 10
495.7586646281
 20
-124.1722064476
 10
498.7608045071
 20
-126.2762819333
 10
501.5907885258
 20
-128.6504044254
 10
504.241352156
 20
-131.2884795856
 10
506.7056914387
 20
-134.1837355127
 10
508.9774804505
 20
-137.3287401262
 10
511.0508875414
 20
-140.7154202445
 10
512.9205903052
 20
-144.3350823083
 10
514.5817892417
 20
-148.1784346969
 10
516.0302200771
 20
-152.2356115799
 10
517.2621647103
 20
-156.4961982424
 10
518.2744607569
 20
-160.9492578196
 10
519.0645096676
 20
-165.5833593714
 10
519.6302833981
 20
-170.3866072255
 10
519.9703296155
 20
-175.3466715137
 10
520.0837754259
 20
-180.450819822
 10
519.9703296155
 20
-185.6859498749
 10
519.6302833981
 20
-191.0386231687
 10
519.0645096676
 20
-196.4950994678
 10
518.2744607569
 20
-202.0413720758
 10
517.2621647103
 20
-207.6632037904
 10
516.0302200771
 20
-213.3461634502
 10
514.5817892417
 20
-219.0756629794
 10
512.9205903052
 20
-224.8369948348
 10
511.0508875414
 20
-230.6153697602
 10
508.9774804505
 20
-236.39595475
 10
506.7056914387
 20
-242.1639111254
 10
504.241352156
 20
-247.9044326251
 10
501.5907885258
 20
-253.6027834128
 10
498.7608045071
 20
-259.2443359038
 10
495.7586646281
 20
-264.8146083137
 10
492.592075339
 20
-270.2993018331
 10
489.2691652289
 20
-275.6843373324
 10
485.7984641606
 20
-280.9558915028
 10
482.1888813738
 20
-286.1004323402
 10
478.4496826158
 20
-291.1047538822
 10
474.5904663561
 20
-295.9560101071
 10
470.6211391477
 20
-300.6417479097
 10
466.5518901964
 20
-305.1499390684
 10
462.3931652061
 20
-309.469011121
 10
458.155639564
 20
-313.5878770715
 10
453.8501909378
 20
-317.4959638502
 10
449.4878713522
 20
-321.1832394544
 10
445.0798788192
 20
-324.6402387003
 10
440.6375285924
 20
-327.8580875206
 10
436.172224121
 20
-330.8285257435
 10
431.6954277775
 20
-333.5439282966
 10
427.2186314341
 20
-335.9973247806
 10
422.7533269627
 20
-338.1824173619
 10
418.3109767358
 20
-340.0935969391
 10
413.9029842028
 20
-341.7259575417
 10
409.5406646173
 20
-343.0753089234
 10
405.2352159911
 20
-344.1381873185
 10
400.997690349
 20
-344.9118643336
 10
396.8389653586
 20
-345.3943539508
 10
392.7697164074
 20
-345.5844176261
 10
388.8003891989
 20
-345.4815674688
 10
384.9411729393
 20
-345.0860674939
 10
381.2019741813
 20
-344.398932944
 10
377.5923913945
 20
-343.4219276837
 10
374.1216903261
 20
-342.1575596715
 10
370.7987802161
 20
-340.609074522
 10
367.6321909269
 20
-338.7804471743
 10
364.630051048
 20
-336.6763716885
 10
361.8000670292
 20
-334.3022491964
 10
359.1495033991
 20
-331.6641740362
 10
356.6851641163
 20
-328.7689181092
 10
354.4133751046
 20
-325.6239134956
 10
352.3399680137
 20
-322.2372333773
 10
350.4702652499
 20
-318.6175713135
 10
348.8090663134
 20
-314.7742189249
 10
347.3606354779
 20
-310.7170420419
 10
346.1286908448
 20
-306.4564553794
 10
345.1163947982
 20
-302.0033958022
 10
344.3263458875
 20
-297.3692942505
 10
343.7605721569
 20
-292.5660463963
 10
343.4205259396
 20
-287.6059821081
 10
343.3070801292
 20
-282.5018337998
  0
LWPOLYLINE
  5
BA
330
1F
100
AcDbEntity
  8
0
  6
Continuous
 62
     7
370
    25
100
AcDbPolyline
 90
      113
 70
   128
 43
0.0
 10
359.3584040622
 20
-273.2356017306
 10
359.4722035815
 20
-268.4862230559
 10
359.8132440842
 20
-263.6203975553
 10
360.3804525307
 20
-258.6534349159
 10
361.1720442733
 20
-253.6009630398
 10
362.1855286715
 20
-248.4788788729
 10
363.4177169285
 20
-243.3032983868
 10
364.8647321241
 20
-238.0905058726
 10
366.5220214133
 20
-232.8569027041
 10
368.3843703507
 20
-227.618955733
 10
370.4459192976
 20
-222.3931454784
 10
372.7001818583
 20
-217.1959142728
 10
375.1400652888
 20
-212.0436145283
 10
377.7578928132
 20
-206.952457286
 10
380.5454277775
 20
-201.9384612101
 10
383.4938995656
 20
-197.0174021875
 10
386.5940311942
 20
-192.2047636902
 10
389.8360685024
 20
-187.5156880596
 10
393.2098108413
 20
-182.9649288624
 10
396.7046431694
 20
-178.5668044707
 10
400.3095694513
 20
-174.3351530108
 10
404.0132472551
 20
-170.2832888239
 10
407.8040234402
 20
-166.4239605738
 10
411.6699708223
 20
-162.7693111349
 10
415.5989257008
 20
-159.3308393865
 10
419.5785261299
 20
-156.1193640328
 10
423.5962508144
 20
-153.1449895634
 10
427.639458506
 20
-150.4170744607
 10
431.6954277775
 20
-147.944201755
 10
435.7513970491
 20
-145.7341520186
 10
439.7946047407
 20
-143.7938788857
 10
443.8123294252
 20
-142.1294871733
 10
447.7919298543
 20
-140.7462136736
 10
451.7208847327
 20
-139.6484106767
 10
455.5868321149
 20
-138.839532277
 10
459.3776083
 20
-138.3221235052
 10
463.0812861038
 20
-138.0978123208
 10
466.6862123856
 20
-138.1673044897
 10
470.1810447138
 20
-138.5303813638
 10
473.5547870527
 20
-139.185900569
 10
476.7968243609
 20
-140.1317995993
 10
479.8969559895
 20
-141.3651023064
 10
482.8454277775
 20
-142.8819282638
 10
485.6329627419
 20
-144.6775049758
 10
488.2507902663
 20
-146.7461828937
 10
490.6906736968
 20
-149.0814531915
 10
492.9449362575
 20
-151.6759682449
 10
495.0064852044
 20
-154.5215647497
 10
496.8688341418
 20
-157.6092894064
 10
498.526123431
 20
-160.9294270909
 10
499.9731386266
 20
-164.4715314218
 10
501.2053268836
 20
-168.2244576284
 10
502.2188112818
 20
-172.1763976164
 10
503.0104030244
 20
-176.3149171205
 10
503.5776114709
 20
-180.6269948272
 10
503.9186519736
 20
-185.0990633448
 10
504.0324514929
 20
-189.7170518912
 10
503.9186519736
 20
-194.4664305659
 10
503.5776114709
 20
-199.3322560666
 10
503.0104030244
 20
-204.299218706
 10
502.2188112818
 20
-209.351690582
 10
501.2053268836
 20
-214.4737747489
 10
499.9731386266
 20
-219.649355235
 10
498.526123431
 20
-224.8621477492
 10
496.8688341418
 20
-230.0957509178
 10
495.0064852044
 20
-235.3336978888
 10
492.9449362575
 20
-240.5595081434
 10
490.6906736968
 20
-245.756739349
 10
488.2507902663
 20
-250.9090390936
 10
485.6329627419
 20
-256.0001963359
 10
482.8454277775
 20
-261.0141924117
 10
479.8969559895
 20
-265.9352514344
 10
476.7968243609
 20
-270.7478899316
 10
473.5547870527
 20
-275.4369655622
 10
470.1810447138
 20
-279.9877247594
 10
466.6862123856
 20
-284.3858491512
 10
463.0812861038
 20
-288.617500611
 10
459.3776083
 20
-292.6693647979
 10
455.5868321149
 20
-296.528693048
 10
451.7208847327
 20
-300.1833424869
 10
447.7919298543
 20
-303.6218142353
 10
443.8123294252
 20
-306.833289589
 10
439.7946047407
 20
-309.8076640585
 10
435.7513970491
 20
-312.5355791611
 10
431.6954277775
 20
-315.0084518668
 10
427.639458506
 20
-317.2185016032
 10
423.5962508144
 20
-319.1587747361
 10
419.5785261299
 20
-320.8231664485
 10
415.5989257008
 20
-322.2064399483
 10
411.6699708223
 20
-323.3042429452
 10
407.8040234402
 20
-324.1131213448
 10
404.0132472551
 20
-324.6305301166
 10
400.3095694513
 20
-324.854841301
 10
396.7046431694
 20
-324.7853491322
 10
393.2098108413
 20
-324.422272258
 10
389.8360685024
 20
-323.7667530529
 10
386.5940311942
 20
-322.8208540226
 10
383.4938995656
 20
-321.5875513154
 10
380.5454277775
 20
-320.0707253581
 10
377.7578928132
 20
-318.2751486461
 10
375.1400652888
 20
-316.2064707282
 10
372.7001818583
 20
-313.8712004303
 10
370.4459192976
 20
-311.2766853769
 10
368.3843703507
 20
-308.4310888722
 10
366.5220214133
 20
-305.3433642155
 10
364.8647321241
 20
-302.0232265309
 10
363.4177169285
 20
-298.4811222
 10
362.1855286715
 20
-294.7281959934
 10
361.1720442733
 20
-290.7762560054
 10
360.3804525307
 20
-286.6377365014
 10
359.8132440842
 20
-282.3256587946
 10
359.4722035815
 20
-277.853590277
 10
359.3584040622
 20
-273.2356017306
  0
LWPOLYLINE
  5
BB
330
1F
100
AcDbEntity
  8
0
  6
Continuous
 62
     7
370
    25
100
AcDbPolyline
 90
       64
 70
   128
 43
0.0
 10
526.0101537207
 20
-141.5894015293
 10
527.5784697815
 20
-142.5413889636
 10
530.5806096605
 20
-144.6454644493
 10
533.4105936792
 20
-147.0195869414
 10
536.0611573094
 20
-149.6576621016
 10
538.5254965921
 20
-152.5529180287
 10
540.7972856039
 20
-155.6979226422
 10
542.8706926947
 20
-159.0846027606
 10
544.7403954586
 20
-162.7042648243
 10
546.4015943951
 20
-166.5476172129
 10
547.8500252305
 20
-170.6047940959
 10
549.0819698637
 20
-174.8653807584
 10
550.0942659103
 20
-179.3184403356
 10
550.884314821
 20
-183.9525418874
 10
551.4500885515
 20
-188.7557897415
 10
551.7901347689
 20
-193.7158540297
 10
551.9035805793
 20
-198.820002338
 10
551.7901347689
 20
-204.0551323909
 10
551.4500885515
 20
-209.4078056847
 10
550.884314821
 20
-214.8642819838
 10
550.0942659103
 20
-220.4105545918
 10
549.0819698637
 20
-226.0323863064
 10
547.8500252305
 20
-231.7153459663
 10
546.4015943951
 20
-237.4448454954
 10
544.7403954586
 20
-243.2061773508
 10
542.8706926947
 20
-248.9845522762
 10
540.7972856038
 20
-254.765137266
 10
538.5254965921
 20
-260.5330936414
 10
536.0611573094
 20
-266.2736151411
 10
533.4105936792
 20
-271.9719659288
 10
530.5806096605
 20
-277.6135184198
 10
527.5784697815
 20
-283.1837908297
 10
524.4118804924
 20
-288.6684843491
 10
521.0889703823
 20
-294.0535198485
 10
517.618269314
 20
-299.3250740188
 10
514.0086865272
 20
-304.4696148563
 10
510.2694877692
 20
-309.4739363982
 10
506.4102715095
 20
-314.3251926231
 10
502.4409443011
 20
-319.0109304257
 10
498.3716953498
 20
-323.5191215844
 10
494.2129703595
 20
-327.838193637
 10
489.9754447174
 20
-331.9570595875
 10
485.6699960911
 20
-335.8651463663
 10
481.3076765056
 20
-339.5524219704
 10
476.8996839726
 20
-343.0094212163
 10
472.4573337458
 20
-346.2272700366
 10
467.9920292743
 20
-349.1977082595
 10
463.5152329309
 20
-351.9131108126
 10
459.0384365875
 20
-354.3665072966
 10
454.5731321161
 20
-356.5515998779
 10
450.1307818892
 20
-358.4627794551
 10
445.7227893562
 20
-360.0951400577
 10
441.3604697707
 20
-361.4444914394
 10
437.0550211445
 20
-362.5073698346
 10
432.8174955024
 20
-363.2810468496
 10
428.658770512
 20
-363.7635364668
 10
424.5895215608
 20
-363.9536001421
 10
420.6201943523
 20
-363.8507499848
 10
416.7609780927
 20
-363.4552500099
 10
413.0217793347
 20
-362.76811546
 10
409.4121965479
 20
-361.7911101997
 10
405.9414954795
 20
-360.5267421875
 10
402.6185853695
 20
-358.978257038
 10
401.0203121412
 20
-358.1016171245
  0
LWPOLYLINE
  5
BC
330
1F
100
AcDbEntity
  8
0
  6
Continuous
 62
     7
370
    25
100
AcDbPolyline
 90
       83
 70
   128
 43
0.0
 10
535.4235642231
 20
-134.7459255691
 10
537.0593966097
 20
-134.7179903091
 10
541.3163120642
 20
-134.8461976837
 10
545.4627361582
 20
-135.2674480045
 10
549.489416598
 20
-135.9808012974
 10
553.3873682852
 20
-136.9846657922
 10
557.1478933653
 20
-138.2768014748
 10
560.7626006364
 20
-139.8543250852
 10
564.2234242731
 20
-141.7137165513
 10
567.5226418247
 20
-143.8508268437
 10
570.6528914468
 20
-146.2608872337
 10
573.6071883284
 20
-148.9385199341
 10
576.3789402779
 20
-151.8777500995
 10
578.9619624331
 20
-155.072019158
 10
581.3504910613
 20
-158.5141994463
 10
583.5391964214
 20
-162.1966101142
 10
585.5231946557
 20
-166.1110342635
 10
587.2980586885
 20
-170.2487372835
 10
588.859828104
 20
-174.6004863407
 10
590.2050179841
 20
-179.1565709813
 10
591.3306266841
 20
-183.906824799
 10
592.2341425308
 20
-188.8406481201
 10
592.9135494271
 20
-193.9470316554
 10
593.3673313506
 20
-199.2145810667
 10
593.5944757363
 20
-204.6315423913
 10
593.5944757363
 20
-210.1858282705
 10
593.3673313506
 20
-215.8650449207
 10
592.9135494271
 20
-221.6565197887
 10
592.2341425308
 20
-227.5473298295
 10
591.3306266841
 20
-233.5243303425
 10
590.2050179841
 20
-239.5741843024
 10
588.859828104
 20
-245.6833921194
 10
587.2980586885
 20
-251.838321762
 10
585.5231946557
 20
-258.0252391755
 10
583.5391964214
 20
-264.2303389278
 10
581.3504910613
 20
-270.4397750152
 10
578.9619624331
 20
-276.6396917576
 10
576.3789402779
 20
-282.8162547165
 10
573.6071883284
 20
-288.9556815647
 10
570.6528914468
 20
-295.0442728404
 10
567.5226418247
 20
-301.0684425155
 10
564.2234242731
 20
-307.014748312
 10
560.7626006364
 20
-312.8699216965
 10
557.1478933653
 20
-318.6208974876
 10
553.3873682852
 20
-324.2548430096
 10
549.489416598
 20
-329.7591867271
 10
545.4627361582
 20
-335.1216462968
 10
541.3163120642
 20
-340.3302559747
 10
537.0593966097
 20
-345.3733933159
 10
532.7014886375
 20
-350.2398051089
 10
528.2523123443
 20
-354.9186324862
 10
523.7217955823
 20
-359.3994351543
 10
519.1200477058
 20
-363.6722146905
 10
514.4573370137
 20
-367.7274368529
 10
509.7440678369
 20
-371.556052855
 10
504.9907573218
 20
-375.1495195575
 10
500.2080119628
 20
-378.4998185311
 10
495.406503935
 20
-381.5994739488
 10
490.5969472804
 20
-384.4415692672
 10
485.7900740005
 20
-387.0197626604
 10
480.9966101091
 20
-389.3283011707
 10
476.2272516985
 20
-391.3620335462
 10
471.4926410723
 20
-393.1164217345
 10
466.8033429982
 20
-394.5875510097
 10
462.1698211337
 20
-395.7721387071
 10
457.602414678
 20
-396.6675415483
 10
453.1113153008
 20
-397.2717615396
 10
448.706544401
 20
-397.5834504297
 10
444.3979307447
 20
-397.601912719
 10
440.1950885339
 20
-397.3271072108
 10
436.1073959529
 20
-396.7596471036
 10
432.1439742422
 20
-395.900798623
 10
428.3136673455
 20
-394.7524781956
 10
424.6250221752
 20
-393.3172481734
 10
421.086269541
 20
-391.5983111157
 10
417.7053057837
 20
-389.5995026432
 10
414.4896751556
 20
-387.3252828794
 10
411.4465529859
 20
-384.7807264976
 10
408.5827296702
 20
-381.9715113982
 10
405.9045955181
 20
-378.9039060385
 10
403.4181264941
 20
-375.5847554456
 10
401.1288708828
 20
-372.0214659424
 10
399.8014794484
 20
-369.67572216
  0
LWPOLYLINE
  5
BD
330
1F
100
AcDbEntity
  8
0
  6
Continuous
 62
     7
370
    25
100
AcDbPolyline
 90
      102
 70
   128
 43
0.0
 10
504.3529061235
 20
-129.0869386139
 10
506.9862645817
 20
-127.9423937143
 10
512.0009107608
 20
-125.9646613585
 10
516.9748739954
 20
-124.2692912899
 10
521.8981373857
 20
-122.8596977582
 10
526.7607861343
 20
-121.7387194971
 10
531.5530275138
 20
-120.9086140077
 10
536.2652105878
 20
-120.3710530119
 10
540.8878456467
 20
-120.1271190862
 10
545.4116233186
 20
-120.1773034808
 10
549.8274333175
 20
-120.5215051312
 10
554.1263827896
 20
-121.159030861
 10
558.2998142228
 20
-122.0885967783
 10
562.3393228816
 20
-123.3083308609
 10
566.2367737331
 20
-124.8157767269
 10
569.9843178301
 20
-126.6078985807
 10
573.5744081175
 20
-128.6810873276
 10
576.9998146311
 20
-131.0311678412
 10
580.2536390581
 20
-133.6534073722
 10
583.3293286292
 20
-136.5425250792
 10
586.2206893149
 20
-139.6927026635
 10
588.9218982996
 20
-143.0975960867
 10
591.4275157077
 20
-146.7503483467
 10
593.7324955595
 20
-150.6436032865
 10
595.8321959321
 20
-154.7695204087
 10
597.7223883084
 20
-159.1197906654
 10
599.3992660926
 20
-163.6856531912
 10
600.859452276
 20
-168.4579129467
 10
602.1000062379
 20
-173.4269592357
 10
603.1184296677
 20
-178.5827850604
 10
603.9126715962
 20
-183.9150072736
 10
604.4811325258
 20
-189.4128874896
 10
604.8226676519
 20
-195.0653537091
 10
604.9365891682
 20
-200.8610226176
 10
604.8226676519
 20
-206.788222509
 10
604.4811325258
 20
-212.8350167916
 10
603.9126715962
 20
-218.9892280265
 10
603.1184296677
 20
-225.2384624513
 10
602.1000062379
 20
-231.5701349395
 10
600.859452276
 20
-237.9714943452
 10
599.3992660926
 20
-244.4296491827
 10
597.7223883084
 20
-250.9315935875
 10
595.8321959321
 20
-257.4642335089
 10
593.7324955595
 20
-264.0144130795
 10
591.4275157077
 20
-270.5689411092
 10
588.9218982996
 20
-277.1146176511
 10
586.2206893149
 20
-283.6382605836
 10
583.3293286292
 20
-290.126732158
 10
580.2536390581
 20
-296.5669654561
 10
576.9998146311
 20
-302.9459907052
 10
573.5744081175
 20
-309.2509613972
 10
569.9843178301
 20
-315.4691801604
 10
566.2367737331
 20
-321.5881243296
 10
562.3393228816
 20
-327.5954711657
 10
558.2998142228
 20
-333.4791226715
 10
554.1263827896
 20
-339.227229956
 10
549.8274333175
 20
-344.828217096
 10
545.4116233186
 20
-350.2708044489
 10
540.8878456466
 20
-355.544031368
 10
536.2652105878
 20
-360.6372782762
 10
531.5530275138
 20
-365.5402880518
 10
526.7607861343
 20
-370.2431866859
 10
521.8981373857
 20
-374.7365031663
 10
516.9748739954
 20
-379.0111885517
 10
512.0009107607
 20
-383.0586341946
 10
506.9862645817
 20
-386.8706890781
 10
501.9410342882
 20
-390.439676231
 10
496.8753803028
 20
-393.7584081882
 10
491.7995041784
 20
-396.8202014651
 10
486.723628054
 20
-399.6188900176
 10
481.6579740686
 20
-402.1488376593
 10
476.6127437751
 20
-404.4049494125
 10
471.598097596
 20
-406.3826817683
 10
466.6241343614
 20
-408.0780518369
 10
461.7008709711
 20
-409.4876453686
 10
456.8382222225
 20
-410.6086236297
 10
452.045980843
 20
-411.4387291191
 10
447.333797769
 20
-411.9762901148
 10
442.7111627101
 20
-412.2202240406
 10
438.1873850382
 20
-412.1700396459
 10
433.7715750393
 20
-411.8258379956
 10
429.4726255672
 20
-411.1883122657
 10
425.299194134
 20
-410.2587463485
 10
421.2596854752
 20
-409.0390122658
 10
417.3622346236
 20
-407.5315663999
 10
413.6146905267
 20
-405.7394445461
 10
410.0246002393
 20
-403.6662557992
 10
406.5991937257
 20
-401.3161752856
 10
403.3453692987
 20
-398.6939357546
 10
400.2696797276
 20
-395.8048180476
 10
397.3783190419
 20
-392.6546404633
 10
394.6771100572
 20
-389.24974704
 10
392.171492649
 20
-385.5969947801
 10
389.8665127973
 20
-381.7037398403
 10
387.7668124247
 20
-377.5778227181
 10
385.8766200484
 20
-373.2275524614
 10
384.1997422642
 20
-368.6616899355
 10
382.7395560808
 20
-363.8894301801
 10
381.4990021189
 20
-358.9203838911
 10
380.4805786891
 20
-353.7645580664
 10
379.6863367606
 20
-348.4323358531
 10
379.363064544
 20
-345.5991542091
  0
LWPOLYLINE
  5
BE
330
1F
100
AcDbEntity
  8
0
  6
Continuous
 62
     7
370
    25
100
AcDbPolyline
 90
       72
 70
   128
 43
0.0
 10
596.5417401308
 20
-141.8929955394
 10
598.323145459
 20
-142.9682292845
 10
601.7485519726
 20
-145.3183097981
 10
605.0023763996
 20
-147.9405493291
 10
608.0780659708
 20
-150.8296670361
 10
610.9694266564
 20
-153.9798446204
 10
613.6706356411
 20
-157.3847380436
 10
616.1762530493
 20
-161.0374903036
 10
618.481232901
 20
-164.9307452434
 10
620.5809332736
 20
-169.0566623656
 10
622.4711256499
 20
-173.4069326223
 10
624.1480034342
 20
-177.9727951481
 10
625.6081896175
 20
-182.7450549036
 10
626.8487435794
 20
-187.7141011926
 10
627.8671670092
 20
-192.8699270173
 10
628.6614089377
 20
-198.2021492305
 10
629.2298698674
 20
-203.7000294465
 10
629.5714049935
 20
-209.352495666
 10
629.6853265098
 20
-215.1481645745
 10
629.5714049935
 20
-221.0753644659
 10
629.2298698674
 20
-227.1221587485
 10
628.6614089377
 20
-233.2763699834
 10
627.8671670092
 20
-239.5256044082
 10
626.8487435794
 20
-245.8572768964
 10
625.6081896175
 20
-252.2586363021
 10
624.1480034342
 20
-258.7167911396
 10
622.4711256499
 20
-265.2187355444
 10
620.5809332736
 20
-271.7513754658
 10
618.481232901
 20
-278.3015550364
 10
616.1762530493
 20
-284.8560830661
 10
613.6706356411
 20
-291.401759608
 10
610.9694266564
 20
-297.9254025405
 10
608.0780659708
 20
-304.4138741149
 10
605.0023763996
 20
-310.854107413
 10
601.7485519726
 20
-317.2331326621
 10
598.323145459
 20
-323.5381033541
 10
594.7330551717
 20
-329.7563221173
 10
590.9855110747
 20
-335.8752662865
 10
587.0880602231
 20
-341.8826131226
 10
583.0485515643
 20
-347.7662646284
 10
578.8751201311
 20
-353.5143719129
 10
574.576170659
 20
-359.1153590529
 10
570.1603606602
 20
-364.5579464058
 10
565.6365829882
 20
-369.8311733249
 10
561.0139479293
 20
-374.9244202331
 10
556.3017648553
 20
-379.8274300087
 10
551.5095234758
 20
-384.5303286428
 10
546.6468747272
 20
-389.0236451232
 10
541.723611337
 20
-393.2983305086
 10
536.7496481023
 20
-397.3457761515
 10
531.7350019232
 20
-401.157831035
 10
526.6897716298
 20
-404.7268181879
 10
521.6241176443
 20
-408.0455501451
 10
516.5482415199
 20
-411.107343422
 10
511.4723653955
 20
-413.9060319745
 10
506.4067114101
 20
-416.4359796162
 10
501.3614811166
 20
-418.6920913694
 10
496.3468349376
 20
-420.6698237252
 10
491.3728717029
 20
-422.3651937937
 10
486.4496083126
 20
-423.7747873255
 10
481.586959564
 20
-424.8957655866
 10
476.7947181845
 20
-425.725871076
 10
472.0825351106
 20
-426.2634320717
 10
467.4599000517
 20
-426.5073659975
 10
462.9361223797
 20
-426.4571816028
 10
458.5203123808
 20
-426.1129799525
 10
454.2213629087
 20
-425.4754542226
 10
450.0479314755
 20
-424.5458883054
 10
446.0084228167
 20
-423.3261542227
 10
442.1109719652
 20
-421.8187083568
 10
438.3634278682
 20
-420.026586503
 10
436.554742909
 20
-419.0286315012
  0
LWPOLYLINE
  5
BF
330
1F
100
AcDbEntity
  8
0
  6
Continuous
 62
     7
370
    25
100
AcDbPolyline
 90
       31
 70
   128
 43
0.0
 10
424.6243599657
 20
-310.9128360913
 10
424.738159485
 20
-306.1634574165
 10
425.0791999877
 20
-301.2976319159
 10
425.6464084342
 20
-296.3306692765
 10
426.4380001768
 20
-291.2781974005
 10
427.451484575
 20
-286.1561132335
 10
428.683672832
 20
-280.9805327474
 10
430.1306880276
 20
-275.7677402332
 10
431.7879773168
 20
-270.5341370647
 10
433.6503262542
 20
-265.2961900936
 10
435.7118752011
 20
-260.0703798391
 10
437.9661377618
 20
-254.8731486334
 10
440.4060211923
 20
-249.7208488889
 10
443.0238487167
 20
-244.6296916466
 10
445.8113836811
 20
-239.6156955708
 10
448.7598554691
 20
-234.6946365481
 10
451.8599870977
 20
-229.8819980508
 10
455.1020244059
 20
-225.1929224203
 10
458.4757667448
 20
-220.6421632231
 10
461.9705990729
 20
-216.2440388313
 10
465.5755253548
 20
-212.0123873714
 10
469.2792031586
 20
-207.9605231846
 10
473.0699793437
 20
-204.1011949344
 10
476.9359267259
 20
-200.4465454956
 10
480.8648816043
 20
-197.0080737471
 10
484.8444820334
 20
-193.7965983934
 10
488.8622067179
 20
-190.822223924
 10
492.9054144095
 20
-188.0943088213
 10
496.9613836811
 20
-185.6214361156
 10
501.0173529526
 20
-183.4113863792
 10
503.7153594553
 20
-182.0873463801
  0
LWPOLYLINE
  5
C0
330
1F
100
AcDbEntity
  8
0
  6
Continuous
 62
     7
370
    25
100
AcDbPolyline
 90
        3
 70
   128
 43
0.0
 10
424.9414520033
 20
-318.5425416024
 10
424.738159485
 20
-315.5308246377
 10
424.6243599657
 20
-310.9128360913
  0
LWPOLYLINE
  5
C1
330
1F
100
AcDbEntity
  8
0
  6
Continuous
 62
     7
370
    25
100
AcDbPolyline
 90
       28
 70
   128
 43
0.0
 10
425.5151890293
 20
-318.2708007219
 10
425.6510737728
 20
-317.1137494303
 10
426.4469818442
 20
-311.4418899313
 10
427.4668958437
 20
-305.6930065949
 10
428.7082801044
 20
-299.8813920508
 10
430.1680483494
 20
-294.0214948886
 10
431.8425713649
 20
-288.1278837358
 10
433.7276860228
 20
-282.2152110385
 10
435.8187056311
 20
-276.2981766325
 10
438.1104315854
 20
-270.3914911976
 10
440.5971662942
 20
-264.5098396846
 10
443.2727273429
 20
-258.6678448059
 10
446.1304628654
 20
-252.8800306811
 10
449.1632680807
 20
-247.1607867281
 10
452.3636029574
 20
-241.5243318885
 10
455.7235109585
 20
-235.9846792772
 10
459.2346388236
 20
-230.5556013434
 10
462.8882573354
 20
-225.2505956303
 10
466.6752830226
 20
-220.0828512178
 10
470.5863007428
 20
-215.0652159329
 10
474.6115870896
 20
-210.2101644075
 10
478.741134567
 20
-205.5297670647
 10
482.9646764692
 20
-201.0356601096
 10
487.2717124056
 20
-196.7390166003
 10
491.6515344062
 20
-192.6505186695
 10
496.0932535436
 20
-188.7803309673
 10
500.585827004
 20
-185.1380753901
 10
503.7669528376
 20
-182.7200828213
  0
ENDSEC
  0
SECTION
  2
OBJECTS
  0
DICTIONARY
  5
C
330
0
100
AcDbDictionary
281
     1
  3
ACAD_GROUP
350
D
  3
ACAD_LAYOUT
350
1A
  3
ACAD_MLINESTYLE
350
17
  3
ACAD_PLOTSETTINGS
350
19
  3
ACAD_PLOTSTYLENAME
350
E
  3
ACAD_SCALELIST
350
47
  0
DICTIONARY
  5
D
102
{ACAD_REACTORS
330
C
102
}
330
C
100
AcDbDictionary
281
     1
  0
DICTIONARY
  5
1A
102
{ACAD_REACTORS
330
C
102
}
330
C
100
AcDbDictionary
281
     1
  3
Layout1
350
1E
  3
Layout2
350
26
  3
Model
350
22
  0
DICTIONARY
  5
17
102
{ACAD_REACTORS
330
C
102
}
330
C
100
AcDbDictionary
281
     1
  3
Standard
350
18
  0
DICTIONARY
  5
19
102
{ACAD_REACTORS
330
C
102
}
330
C
100
AcDbDictionary
281
     1
  0
ACDBDICTIONARYWDFLT
  5
E
102
{ACAD_REACTORS
330
C
102
}
330
C
100
AcDbDictionary
281
     1
  3
Normal
350
F
100
AcDbDictionaryWithDefault
340
F
  0
DICTIONARY
  5
47
102
{ACAD_REACTORS
330
C
102
}
330
C
100
AcDbDictionary
281
     1
  3
A0
350
48
  3
A1
350
49
  3
A2
350
4A
  3
A3
350
4B
  3
A4
350
4C
  3
A5
350
4D
  3
A6
350
4E
  3
A7
350
4F
  3
A8
350
50
  3
A9
350
51
  3
B0
350
52
  3
B1
350
53
  3
B2
350
54
  3
B3
350
55
  3
B4
350
56
  3
B5
350
57
  3
B6
350
58
  3
B7
350
59
  3
B8
350
5A
  3
B9
350
5B
  3
C0
350
5C
  3
C1
350
5D
  3
C2
350
5E
  3
C3
350
5F
  3
C4
350
60
  3
C5
350
61
  3
C6
350
62
  3
C7
350
63
  3
C8
350
64
  3
C9
350
65
  3
D0
350
66
  3
D1
350
67
  3
D2
350
68
  0
LAYOUT
  5
1E
102
{ACAD_REACTORS
330
1A
102
}
330
1A
100
AcDbPlotSettings
  1

  2
none_device
  4

  6

 40
0.0
 41
0.0
 42
0.0
 43
0.0
 44
0.0
 45
0.0
 46
0.0
 47
0.0
 48
0.0
 49
0.0
140
0.0
141
0.0
142
1.0
143
1.0
 70
   688
 72
     1
 73
     0
 74
     5
  7

 75
    16
147
1.0
148
0.0
149
0.0
100
AcDbLayout
  1
Layout1
 70
     1
 71
     1
 10
0.0
 20
0.0
 11
420.0
 21
297.0
 12
0.0
 22
0.0
 32
0.0
 14
1.0000000000E+20
 24
1.0000000000E+20
 34
1.0000000000E+20
 15
-1.0000000000E+20
 25
-1.0000000000E+20
 35
-1.0000000000E+20
146
0.0
 13
0.0
 23
0.0
 33
0.0
 16
1.0
 26
0.0
 36
0.0
 17
0.0
 27
1.0
 37
0.0
 76
     0
330
1B
  0
LAYOUT
  5
26
102
{ACAD_REACTORS
330
1A
102
}
330
1A
100
AcDbPlotSettings
  1

  2
none_device
  4

  6

 40
0.0
 41
0.0
 42
0.0
 43
0.0
 44
0.0
 45
0.0
 46
0.0
 47
0.0
 48
0.0
 49
0.0
140
0.0
141
0.0
142
1.0
143
1.0
 70
   688
 72
     1
 73
     0
 74
     5
  7

 75
    16
147
1.0
148
0.0
149
0.0
100
AcDbLayout
  1
Layout2
 70
     1
 71
     2
 10
0.0
 20
0.0
 11
0.0
 21
0.0
 12
0.0
 22
0.0
 32
0.0
 14
0.0
 24
0.0
 34
0.0
 15
0.0
 25
0.0
 35
0.0
146
0.0
 13
0.0
 23
0.0
 33
0.0
 16
1.0
 26
0.0
 36
0.0
 17
0.0
 27
1.0
 37
0.0
 76
     0
330
23
  0
LAYOUT
  5
22
102
{ACAD_REACTORS
330
1A
102
}
330
1A
100
AcDbPlotSettings
  1

  2
none_device
  4
Letter_(8.50_x_11.00_Inches)
  6

 40
6.35
 41
6.35
 42
6.35000508
 43
6.35000508
 44
215.9
 45
279.4
 46
0.0
 47
0.0
 48
0.0
 49
0.0
140
0.0
141
0.0
142
1.0
143
1.0
 70
  1712
 72
     1
 73
     0
 74
     0
  7

 75
     0
147
1.0
148
0.0
149
0.0
100
AcDbLayout
  1
Model
 70
     1
 71
     0
 10
0.0
 20
0.0
 11
279.4
 21
215.9
 12
0.0
 22
0.0
 32
0.0
 14
0.0
 24
0.0
 34
0.0
 15
279.4
 25
215.9
 35
0.0
146
0.0
 13
0.0
 23
0.0
 33
0.0
 16
1.0
 26
0.0
 36
0.0
 17
0.0
 27
1.0
 37
0.0
 76
     0
330
1F
331
29
  0
MLINESTYLE
  5
18
102
{ACAD_REACTORS
330
17
102
}
330
17
100
AcDbMlineStyle
  2
Standard
 70
     0
  3

 62
   256
 51
90.0
 52
90.0
 71
     2
 49
0.5
 62
   256
  6
BYLAYER
 49
-0.5
 62
   256
  6
BYLAYER
  0
ACDBPLACEHOLDER
  5
F
102
{ACAD_REACTORS
330
E
102
}
330
E
  0
SCALE
  5
48
102
{ACAD_REACTORS
330
47
102
}
330
47
100
AcDbScale
 70
     0
300
1:1
140
1.0
141
1.0
290
     1
  0
SCALE
  5
49
102
{ACAD_REACTORS
330
47
102
}
330
47
100
AcDbScale
 70
     0
300
1:2
140
1.0
141
2.0
290
     0
  0
SCALE
  5
4A
102
{ACAD_REACTORS
330
47
102
}
330
47
100
AcDbScale
 70
     0
300
1:4
140
1.0
141
4.0
290
     0
  0
SCALE
  5
4B
102
{ACAD_REACTORS
330
47
102
}
330
47
100
AcDbScale
 70
     0
300
1:5
140
1.0
141
5.0
290
     0
  0
SCALE
  5
4C
102
{ACAD_REACTORS
330
47
102
}
330
47
100
AcDbScale
 70
     0
300
1:8
140
1.0
141
8.0
290
     0
  0
SCALE
  5
4D
102
{ACAD_REACTORS
330
47
102
}
330
47
100
AcDbScale
 70
     0
300
1:10
140
1.0
141
10.0
290
     0
  0
SCALE
  5
4E
102
{ACAD_REACTORS
330
47
102
}
330
47
100
AcDbScale
 70
     0
300
1:16
140
1.0
141
16.0
290
     0
  0
SCALE
  5
4F
102
{ACAD_REACTORS
330
47
102
}
330
47
100
AcDbScale
 70
     0
300
1:20
140
1.0
141
20.0
290
     0
  0
SCALE
  5
50
102
{ACAD_REACTORS
330
47
102
}
330
47
100
AcDbScale
 70
     0
300
1:30
140
1.0
141
30.0
290
     0
  0
SCALE
  5
51
102
{ACAD_REACTORS
330
47
102
}
330
47
100
AcDbScale
 70
     0
300
1:40
140
1.0
141
40.0
290
     0
  0
SCALE
  5
52
102
{ACAD_REACTORS
330
47
102
}
330
47
100
AcDbScale
 70
     0
300
1:50
140
1.0
141
50.0
290
     0
  0
SCALE
  5
53
102
{ACAD_REACTORS
330
47
102
}
330
47
100
AcDbScale
 70
     0
300
1:100
140
1.0
141
100.0
290
     0
  0
SCALE
  5
54
102
{ACAD_REACTORS
330
47
102
}
330
47
100
AcDbScale
 70
     0
300
2:1
140
2.0
141
1.0
290
     0
  0
SCALE
  5
55
102
{ACAD_REACTORS
330
47
102
}
330
47
100
AcDbScale
 70
     0
300
4:1
140
4.0
141
1.0
290
     0
  0
SCALE
  5
56
102
{ACAD_REACTORS
330
47
102
}
330
47
100
AcDbScale
 70
     0
300
8:1
140
8.0
141
1.0
290
     0
  0
SCALE
  5
57
102
{ACAD_REACTORS
330
47
102
}
330
47
100
AcDbScale
 70
     0
300
10:1
140
10.0
141
1.0
290
     0
  0
SCALE
  5
58
102
{ACAD_REACTORS
330
47
102
}
330
47
100
AcDbScale
 70
     0
300
100:1
140
100.0
141
1.0
290
     0
  0
SCALE
  5
59
102
{ACAD_REACTORS
330
47
102
}
330
47
100
AcDbScale
 70
     0
300
1/128" = 1'-0"
140
0.0078125
141
12.0
290
     0
  0
SCALE
  5
5A
102
{ACAD_REACTORS
330
47
102
}
330
47
100
AcDbScale
 70
     0
300
1/64" = 1'-0"
140
0.015625
141
12.0
290
     0
  0
SCALE
  5
5B
102
{ACAD_REACTORS
330
47
102
}
330
47
100
AcDbScale
 70
     0
300
1/32" = 1'-0"
140
0.03125
141
12.0
290
     0
  0
SCALE
  5
5C
102
{ACAD_REACTORS
330
47
102
}
330
47
100
AcDbScale
 70
     0
300
1/16" = 1'-0"
140
0.0625
141
12.0
290
     0
  0
SCALE
  5
5D
102
{ACAD_REACTORS
330
47
102
}
330
47
100
AcDbScale
 70
     0
300
3/32" = 1'-0"
140
0.09375
141
12.0
290
     0
  0
SCALE
  5
5E
102
{ACAD_REACTORS
330
47
102
}
330
47
100
AcDbScale
 70
     0
300
1/8" = 1'-0"
140
0.125
141
12.0
290
     0
  0
SCALE
  5
5F
102
{ACAD_REACTORS
330
47
102
}
330
47
100
AcDbScale
 70
     0
300
3/16" = 1'-0"
140
0.1875
141
12.0
290
     0
  0
SCALE
  5
60
102
{ACAD_REACTORS
330
47
102
}
330
47
100
AcDbScale
 70
     0
300
1/4" = 1'-0"
140
0.25
141
12.0
290
     0
  0
SCALE
  5
61
102
{ACAD_REACTORS
330
47
102
}
330
47
100
AcDbScale
 70
     0
300
3/8" = 1'-0"
140
0.375
141
12.0
290
     0
  0
SCALE
  5
62
102
{ACAD_REACTORS
330
47
102
}
330
47
100
AcDbScale
 70
     0
300
1/2" = 1'-0"
140
0.5
141
12.0
290
     0
  0
SCALE
  5
63
102
{ACAD_REACTORS
330
47
102
}
330
47
100
AcDbScale
 70
     0
300
3/4" = 1'-0"
140
0.75
141
12.0
290
     0
  0
SCALE
  5
64
102
{ACAD_REACTORS
330
47
102
}
330
47
100
AcDbScale
 70
     0
300
1" = 1'-0"
140
1.0
141
12.0
290
     0
  0
SCALE
  5
65
102
{ACAD_REACTORS
330
47
102
}
330
47
100
AcDbScale
 70
     0
300
1-1/2" = 1'-0"
140
1.5
141
12.0
290
     0
  0
SCALE
  5
66
102
{ACAD_REACTORS
330
47
102
}
330
47
100
AcDbScale
 70
     0
300
3" = 1'-0"
140
3.0
141
12.0
290
     0
  0
SCALE
  5
67
102
{ACAD_REACTORS
330
47
102
}
330
47
100
AcDbScale
 70
     0
300
6" = 1'-0"
140
6.0
141
12.0
290
     0
  0
SCALE
  5
68
102
{ACAD_REACTORS
330
47
102
}
330
47
100
AcDbScale
 70
     0
300
1'-0" = 1'-0"
140
12.0
141
12.0
290
     0
  0
ENDSEC
  0
EOF
